ACCORDI E TESTO - THE REASON - HOOBASTANK

ACCORDI E TESTO - THE REASON - HOOBASTANK

ACCORDI E TESTO - THE REASON - HOOBASTANK

--------------------------------

E                        C#m
I'm not a perfect person
E
There are many things I wish I didn't do
C#m
But I continue learning
A
I never meant to do those things to you
B
and so I have to say before I go
E2
that I just want you to know

Chorus 1:

C#m                          A
I've found a reason for me, to change who I used to be
B                        E
a reason to start over new, and the reason is you

Verse 2:

C#m
I'm sorry that I hurt you
E
It's something I must live with everyday
C#m
and all the pain I put you through
A
I wish that I could take it all away
B
and be the one who catches all your tears
E2
thats why I need you to hear

Chorus 2:

C#m                          A
I've found a reason for me, to change who I used to be
B                        Dsus2
a reason to start over new, and the reason is you

Bridge:

E2
and the reason is you
Dsus2
and the reason is you
E2
and the reason is you

Verse 3:

E                         C#m
I'm not a perfect person
A
I never meant to do those things to you
B
and so I have to say before I go
E2
that I just want you to know

Repeat Chorus 1:

Chorus 3:

C#m
I've found a reason to show
A
a side of me you didn't know
B
a reason for all that I do
E
and the reason is you

-----------------------------------------

Intro

E[-----4----]
B[-5-7---4--] (6x)
G[----------]

Verse 1
"I’m not a perfect person…"
E[-----4----]
B[-5-7---4--] (2x)

E[----------]
B[-2-4-5--0-] (4x)
G[----------]

E[-----4----]
B[-5-7---4--] (4x)
G[----------]

E[----------]
B[-2-4-5--0-] (8x)
G[----------]

E[----------]
B[-0-2-4--0-] (4x)
G[----------]

Chorus
   E C#m7  A2 Bsus
E[-0---0---0---0--]
B[-0---0---0---0--]
G[-1---6---2---4--]
D[-2---6---2---4--]
A[-2---4---0---2--]
E[-0--------------]

Bridge
"And the reason is You…"
   D2 E  D2 E
E[-0--0--0--0--]
B[-3--0--3--0--]
G[-2--1--2--1--]
D[-0--2--0--2--]
A[----2-----2--]
E[----0-----0--]

Last Chorus
   E C#m7  A2 Bsus
E[-0---0---0---0--]
B[-0---0---0---0--]
G[-1---6---2---4--] (2x)
D[-2---6---2---4--]
A[-2---4---0---2--]
E[-0--------------]