ACCORDI E TESTO - DIMMI COS'E' - NEK

ACCORDI E TESTO - DIMMI COS'E' - NEK

ACCORDI E TESTO - DIMMI COS'E' - NEK

----------------------------------

Intro   FA    REm    FA    REm

Verse:
FA                                     REm
Fammi un po' compagnia, dai baciami adesso,
FA                                REm
io non so cosa sia, sto sul depresso,
              SOLm       FA                     DO                DO6   DO6   DO
e' una noia bestiale   che mi prende se solo non ci sei,
              SOLm       FA                   DO
e' una cosa normale,  o succede solo a me?...

Chorus
         SIb                     FA
        Dimmi dimmi dimmi cos'e'
                     DO
        Cos'e' che c'e'

         SIb                     FA
        Dimmi dimmi dimmi cos'e'
                      DO
        Che c'e' tra noi
         SIb                           FA
        Forse i troppi impegni che hai
                       DO
        Sempre diversi
         SIb                        FA
        Quest'amore a sorsi lo sai
                 DO
        Non mi va

(verse chords)
Cosa credi che sia, e stringimi adesso
Io ti poggio la faccia tra le braccia per un po'
E questa noia bestiale   e' una storia che passa quando vuoi,
ma c'e' una cosa da fare   e' pensare un po' piu' a noi...

(chorus chords)
      Dimmi dimmi dimmi cos'e'
      Cos'e' che c'e'
        Dimmi dimmi dimmi cos'e'
        Che c'e' tra noi
        Io con te credevo di spaccare il mondo
        Ma mi giro e poi tu dietro non ci sei

       REm          LAm            SIb               FA
        Ahaha, sai che c'e', io ti voglio con me
         REm         LAm         SIb                       SOLm
        Ahaha, ora stai, mettimi sul viso quel sorriso che tu hai...

        Ad Lib. ( Bb  Bb/F  Gm7  Bb/F  Bb  Bb/F  Gm7  C )

(Piano plays verse chords)
Non andartene via, dai baciami adesso
Dimmi che conto io per te, e dimmelo spesso
E questa noia bestiale, come un vecchio animale cade gia'
E questa noia che sale la tua mano togliera'...

(chorus chords)     
        Dimmi dimmi dimmi cos'e'
        Cos'e' che c'e'
        Dimmi dimmi dimmi cos'e'
        Che c'e' tra noi
        Dimmi dimmi dimmi che ho
        se non ti ho
dimmi dimmi dimmi cos'e'
dimmi dimmi cos'e'...

SOLO
(w/dist)                                                       a.h.
E---------------------------------------|-------------------------------|-
B---------------------------------------|-------------------------------|-
G---5^(7)^(5)^(7)^(5)^(7)^(5)---3-2~~---|--2^3^2------------------------|-
D---------------------------------------|--------5-3---5----------------|-
A---------------------------------------|------------------3------------|-
E---------------------------------------|----------------------3/5--3---|-

E---------------------------------------|----------------------------
B---------------------------------------|----------------------------
G---5^(7)^(5)^(7)^(5)^(7)^(5)---3-2~~---|---5------------------------
D------------------------------------3--|---5------------------------
A---------------------------------------|---3------------------------
E---------------------------------------|----------------------------

PLAYING HINTS:

During the chorus, the distorted guitar goes like this:

             "Dimmi dimmi dimmi cos'e', cos'e' che c'e'"
E-----------|---------------------|-------------|----------
B-----------|---------------------|-------------|----------
G-----------|---------------------|-------------|----------
D-----------|---------------------|-------------|----------
A-------3^5-|-1~~~----------------|-------------|-/3~~~----
E---3^5-----|---------------------|-1~~~--------|----------

             "Dimmi dimmi dimmi cos'e', che c'e' tra noi"
E-----------|---------------------|-------------|----------1-1--0---
B-----------|---------------------|-------------|----------1-1--1---
G-----------|---------------------|-------------|-------------------
D-----------|---------------------|-------------|-------------------
A-------3^5-|-1~~~----------------|-------------|-/3~~~-------------
E---3^5-----|---------------------|-1~~~--------|-------------------