Accordi e testo - Dickhead di ADD

Tablatura chitarra - Dickhead di ADD

--------------------------------------------------

intro
e|---------------101010--------151515-----------------------|
b|----------------------------------------------------------|
g|-77-12~----777---------121212---------777---------121212~-|
d|-77-10~----777---------121212---------777---------121212~-|
a|-55-10~----555---------101010---------555---------101010~-|
e|----------------------------------------------------------|
 
verse1/chorus
e|---------------|
b|---------------|
g|-7-------------|
d|-7(16x)-5------|
a|-5------5(16---|x)
e|--------3------|
 
verse2
e|----------------------------------------------------------|
b|----------------------------------------------------------|
g|-77-7--77-7--77-7--77-7---1212-12-1212-12-1212-12-1212-12-|
d|-77-7--77-7--77-7--77-7---1212-12-1212-12-1212-12-1212-12-|
a|-55-5--55-5--55-5--55-5---1010-10-1010-10-1010-10-1010-10-|
e|----------------------------------------------------------|